Březen 2016

Otravnej den

30. března 2016 v 22:12 | Loluo♔ |  Ðeníčky

Každá středa je dlouhá. Ve škole mám jen šest hodin. Na začátku té první jsem se ocitla v kabinetu tělocviku a řešila s učitelkou svůj průzkum k seminární práci. Za několik minut někdo klepal. Otevřely se dveře - za nimi ředitelka (hrozná kráva, pardon) a zástupce se zástupkyní, že jdou popřát ke.. svátku nebo dni učitelů? Hm? To je asi ono.. Takže jsem vzala nohy na ramena a utekla odtamtud na češtinu. V chemii jsme psali test. Místo odpovědí jsem odevzdala pokreslený papír. Třetí hodinu jsem vandalizovala třídní kroniku. Všichni tam o sobě napsali dvě strany, tak jsem se trochu pobavila a dopsala nějaké zajímavé informace ke každému spolužákovi. Pak byl dějepis - hodina, kterou každý prospí, ať už chce nebo ne, protože vykládání naší učitelky ukolébá i draka.
V matice jsme pracovali ve skupinách a měli jen tak přijít na to, kolik váží Země. Aha. Byla jsem ve skupině se svým oblíbeným spolužákem a dvěma holkama. Spolužák začal všechno počítat sám, protože je dost geniální na to, aby se v tom vyznal. Pokoušela jsem se mu pomoct, tak jsme se společně snažili přijít na to, proč nám vyšlo číslo 23 934 934 934 934 934. Spolužačky vedle nás začaly požďuchovat, že bychom se k sobě hodili. Podívali jsme se se spolužákem na sebe, usmáli a počítali dál.

Vylejvání srdce

29. března 2016 v 20:21 | Loluo♔ |  Ðeníčky
Při psaní poslouchám: Antonín Dvořák - Polednice


Pro začátek musím uvést, že jsem velmi komplikovaná osobnost - tím se vždy vysvětlí mnoho věcí.
Při vstávání mě chytla příšerná křeč do nohy, tak jsem v bolesti ani nedutala. Jen ležela a čekala, až to přejde. Avšak - přišla máma, která mě, s úmyslem konečně probudit, chňapla za mou nebohou nohu a násilím vytáhla z postele. Za nějakou chvíli jsem si pogratulovala, že jsem stále naživu.
Na cestu do školy jsem si opět dala svá velká sluchátka. Neměla jsem žádnou novou symfonii ani koncerty, a tak jsem si pustila rock n' roll. Sedl mi dobře. Nechci poslouchat neustále to samé dokola, i když je to nádherné.. ale musíte mě pochopit. Když za týden sjedete 11krát Novosvětskou a za víkend 7krát sedmou symfonii od Prokofjeva, chce se vám jít zase o kousek dál. (Ano, počítám si to. Dělám čárky tužkou na stůl)
Ve škole mě to jako obvykle nebavilo. Vzala jsem si s sebou ale můj nový skicák a konečně nemusela žebrat spolužáky o papíry. (Dostala jsem ho před pár dny od táty, dovezl mi ho z Anglie. Je vázaný v kůži a má sponu na zapínání) Z písemnky z matiky jsem dostala 2-, měla jsem radost, že mi to vyšlo. Jsem na matematiku dobrá, dřív mě dokonce fascinovala, ale už se mi nechce pracovat.. jak už jsem přijatá na střední, je mi všechno jedno. Taky jsem si řekla, že nemusím dostávat pořád jedničky. Bude ze mě přece umělec a ti dobré známky nemají.

Guitar solo tab. výmysl1

28. března 2016 v 11:30 | Loluo♔ |  Hudba♫
E --9-10-9------------9-10-9--------------------
H -----------10-8-------------10-8--10---------
G -----------------9------------------------------
D -------------------------------------------------
A -------------------------------------------------
E -------------------------------------------------

E --9-10-9------------9-10-9-----8--10--------
H -----------10-8--------------10---------------
G -----------------9-----------------------------
D ------------------------------------------------
A ------------------------------------------------
E ------------------------------------------------

E --9-10-9------------9-10-9------------------
H -----------10-8--------------8--10-----------
G -----------------9-----------------------------
D ------------------------------------------------
A ------------------------------------------------
E ------------------------------------------------

E --9-10-9------------9-10-9------------------
H -----------10-8--------------10-8-10---------
G -----------------9-----------------------------
D ------------------------------------------------
A ------------------------------------------------
E ------------------------------------------------

E --9-10-9------------9-10-9------------------
H -----------10-8-----------------8--10--------
G -----------------9------------9----------------
D ------------------------------------------------
A ------------------------------------------------
E ------------------------------------------------

kamarád mi trochu poupravil původní verzi, vzniklo tohle
,,Za co běžíte? Za práva žen?" - ,,Chtěl jsem si jen zaběhat.."